• BEST Guitar Song

    Лучшие песни под гитару
  • "Иногда лучшее, что ты можешь сделать с гитарой, - это просто разглядывать ее"

    -Том Йорк
  • -Я репетировал десять часов подряд
    -Спать с гитарой в руках это не репетиция
    -Если гитара не упала - репетиция

    -Джейн Лейн
  • "Между жизнью и смертью я выбираю гитару"

    -Пабло Неруда
  • 1
  • 2
  • 3
  • 4

Текст новогодней песни "В лесу родилась елочка"

       C         G      C
В лесу родилась елочка
        C    G      Em
В лесу она росла
     Dm7               C
Зимой и летом стройная
  Dm7 G6    C
Зеленая была

Метель ей пела песенку:
Спи елочка бай-бай
Мороз снежком укутывал:
Смотри не замерзай

Трусишка зайка серенький
Под елочкой скакал
Порою волк сердитый волк
Рысцою пробегал

Чу cнег по лесу частому
Под полозом скрипит
Лошадка мохноногая
Торопиться бежит

Везет лошадка дровенки
А в дровнях мужичок
Срубил он нашу елочку
Под самый корешок

Теперь она нарядная
На праздник к нам пришла
И много много радости
Детишкам принесла

Табулатура для одной струны

1) 1 струна |------------0---|9---9---7---9---|
2) 1 струна |5---0---0---0---|9---9---10--7---|
3) 1 струна |12----------12--|2---2---10--10--|
4) 1 струна |9---7---5---0---|9---9---7---9---|
5) 1 струна |5-----------5---|2---2---10--10--|
6) 1 струна |9---7---5---0---|9---9---7---9---|  
7) 1 струна |5---------------|

Табулатура на всех струнах:

             1-ая часть                 
E||---------------------|--0--0-----0--|
B||---------------------|--------3-----|
G||----------0----------|--------------|
D||---------------------|--------------|
A||---------------------|--------------|
E||---------------------|--------------|

        2-ая часть                    
----------------------|--0--0--1-----|
--1-------------------|-----------3--|
-----0--0----------0--|--------------|
----------------------|--------------|
----------------------|--------------|
----------------------|--------------|

          3-ая часть                 
--3------3----------|--------1--1--|
---------------------|--------------|
---------------------|--2--2--------|
---------------------|--------------|
---------------------|--------------|
---------------------|--------------|

           4-ая часть                 

--0-----------------|--0--0-----0----|
-----3--1----------|----------3----1-|
-----------0--------|----------------|
--------------------|----------------|
--------------------|----------------|
--------------------|----------------|

Самая популярная новогодняя песня, которую можно сыграть на гитаре как на одной струне, так и с использованием всех струн, что дает мелодии более "глубокое" звучание. Песня подойдет любому начинающему гитаристу, так как в ней нет сложных переборов или сложных аккордов, а подобранные табулатуры и видеоуроки помогут быстро научиться играть эту песню на гитаре.

Аккорды, присутствующие в этой песне

C G Em Dm7 G6

Видео исполнения новогодней песни:

 На одной (первой струне) струне:

На "всех" струнах:

Разбор более сложного исполнения с перебором:

Добавить комментарий